ISO-10303-21;
HEADER;
/* Generated by software containing ST-Developer
 * from STEP Tools, Inc. (www.steptools.com) 
 */

FILE_DESCRIPTION(
/* description */ (''),
/* implementation_level */ '2;1');

FILE_NAME(
/* name */ 'Weight Block (PUBLIC).step',
/* time_stamp */ '2023-06-27T23:50:16-06:00',
/* author */ (''),
/* organization */ (''),
/* preprocessor_version */ 'ST-DEVELOPER v19.2',
/* originating_system */ 'Autodesk Translation Framework v12.6.0.85',
/* authorisation */ '');

FILE_SCHEMA (('AUTOMOTIVE_DESIGN { 1 0 10303 214 3 1 1 }'));
ENDSEC;

DATA;
#10=MECHANICAL_DESIGN_GEOMETRIC_PRESENTATION_REPRESENTATION('',(#13),#420);
#11=SHAPE_REPRESENTATION_RELATIONSHIP('SRR','None',#427,#12);
#12=ADVANCED_BREP_SHAPE_REPRESENTATION('',(#14),#419);
#13=STYLED_ITEM('',(#436),#14);
#14=MANIFOLD_SOLID_BREP('Body1',#256);
#15=FACE_BOUND('',#46,.T.);
#16=FACE_BOUND('',#50,.T.);
#17=PLANE('',#273);
#18=PLANE('',#274);
#19=PLANE('',#275);
#20=PLANE('',#276);
#21=PLANE('',#277);
#22=PLANE('',#278);
#23=PLANE('',#279);
#24=PLANE('',#280);
#25=PLANE('',#281);
#26=PLANE('',#282);
#27=PLANE('',#283);
#28=PLANE('',#284);
#29=FACE_OUTER_BOUND('',#42,.T.);
#30=FACE_OUTER_BOUND('',#43,.T.);
#31=FACE_OUTER_BOUND('',#44,.T.);
#32=FACE_OUTER_BOUND('',#45,.T.);
#33=FACE_OUTER_BOUND('',#47,.T.);
#34=FACE_OUTER_BOUND('',#48,.T.);
#35=FACE_OUTER_BOUND('',#49,.T.);
#36=FACE_OUTER_BOUND('',#51,.T.);
#37=FACE_OUTER_BOUND('',#52,.T.);
#38=FACE_OUTER_BOUND('',#53,.T.);
#39=FACE_OUTER_BOUND('',#54,.T.);
#40=FACE_OUTER_BOUND('',#55,.T.);
#41=FACE_OUTER_BOUND('',#56,.T.);
#42=EDGE_LOOP('',(#176,#177,#178,#179));
#43=EDGE_LOOP('',(#180,#181,#182,#183));
#44=EDGE_LOOP('',(#184,#185,#186,#187,#188,#189,#190,#191));
#45=EDGE_LOOP('',(#192,#193,#194,#195,#196,#197));
#46=EDGE_LOOP('',(#198));
#47=EDGE_LOOP('',(#199,#200,#201,#202));
#48=EDGE_LOOP('',(#203,#204,#205,#206,#207,#208,#209,#210));
#49=EDGE_LOOP('',(#211,#212,#213,#214,#215,#216));
#50=EDGE_LOOP('',(#217));
#51=EDGE_LOOP('',(#218,#219,#220,#221));
#52=EDGE_LOOP('',(#222,#223,#224,#225));
#53=EDGE_LOOP('',(#226,#227,#228,#229));
#54=EDGE_LOOP('',(#230,#231,#232,#233));
#55=EDGE_LOOP('',(#234,#235,#236,#237));
#56=EDGE_LOOP('',(#238,#239,#240,#241));
#57=LINE('',#353,#88);
#58=LINE('',#358,#89);
#59=LINE('',#360,#90);
#60=LINE('',#362,#91);
#61=LINE('',#363,#92);
#62=LINE('',#366,#93);
#63=LINE('',#368,#94);
#64=LINE('',#370,#95);
#65=LINE('',#372,#96);
#66=LINE('',#374,#97);
#67=LINE('',#376,#98);
#68=LINE('',#377,#99);
#69=LINE('',#380,#100);
#70=LINE('',#382,#101);
#71=LINE('',#384,#102);
#72=LINE('',#385,#103);
#73=LINE('',#388,#104);
#74=LINE('',#390,#105);
#75=LINE('',#391,#106);
#76=LINE('',#394,#107);
#77=LINE('',#396,#108);
#78=LINE('',#398,#109);
#79=LINE('',#400,#110);
#80=LINE('',#402,#111);
#81=LINE('',#403,#112);
#82=LINE('',#405,#113);
#83=LINE('',#406,#114);
#84=LINE('',#408,#115);
#85=LINE('',#410,#116);
#86=LINE('',#412,#117);
#87=LINE('',#415,#118);
#88=VECTOR('',#291,2.5);
#89=VECTOR('',#296,10.);
#90=VECTOR('',#297,10.);
#91=VECTOR('',#298,10.);
#92=VECTOR('',#299,10.);
#93=VECTOR('',#302,10.);
#94=VECTOR('',#303,10.);
#95=VECTOR('',#304,10.);
#96=VECTOR('',#305,10.);
#97=VECTOR('',#306,10.);
#98=VECTOR('',#307,10.);
#99=VECTOR('',#308,10.);
#100=VECTOR('',#311,10.);
#101=VECTOR('',#312,10.);
#102=VECTOR('',#313,10.);
#103=VECTOR('',#314,10.);
#104=VECTOR('',#317,10.);
#105=VECTOR('',#318,10.);
#106=VECTOR('',#319,10.);
#107=VECTOR('',#322,10.);
#108=VECTOR('',#323,10.);
#109=VECTOR('',#324,10.);
#110=VECTOR('',#325,10.);
#111=VECTOR('',#326,10.);
#112=VECTOR('',#327,10.);
#113=VECTOR('',#330,10.);
#114=VECTOR('',#331,10.);
#115=VECTOR('',#334,10.);
#116=VECTOR('',#337,10.);
#117=VECTOR('',#340,10.);
#118=VECTOR('',#345,10.);
#119=CIRCLE('',#271,2.5);
#120=CIRCLE('',#272,2.5);
#121=VERTEX_POINT('',#350);
#122=VERTEX_POINT('',#352);
#123=VERTEX_POINT('',#356);
#124=VERTEX_POINT('',#357);
#125=VERTEX_POINT('',#359);
#126=VERTEX_POINT('',#361);
#127=VERTEX_POINT('',#365);
#128=VERTEX_POINT('',#367);
#129=VERTEX_POINT('',#369);
#130=VERTEX_POINT('',#371);
#131=VERTEX_POINT('',#373);
#132=VERTEX_POINT('',#375);
#133=VERTEX_POINT('',#379);
#134=VERTEX_POINT('',#381);
#135=VERTEX_POINT('',#383);
#136=VERTEX_POINT('',#387);
#137=VERTEX_POINT('',#389);
#138=VERTEX_POINT('',#393);
#139=VERTEX_POINT('',#395);
#140=VERTEX_POINT('',#397);
#141=VERTEX_POINT('',#399);
#142=VERTEX_POINT('',#401);
#143=EDGE_CURVE('',#121,#121,#119,.T.);
#144=EDGE_CURVE('',#121,#122,#57,.T.);
#145=EDGE_CURVE('',#122,#122,#120,.T.);
#146=EDGE_CURVE('',#123,#124,#58,.T.);
#147=EDGE_CURVE('',#124,#125,#59,.T.);
#148=EDGE_CURVE('',#125,#126,#60,.T.);
#149=EDGE_CURVE('',#126,#123,#61,.T.);
#150=EDGE_CURVE('',#126,#127,#62,.T.);
#151=EDGE_CURVE('',#127,#128,#63,.T.);
#152=EDGE_CURVE('',#129,#128,#64,.T.);
#153=EDGE_CURVE('',#130,#129,#65,.T.);
#154=EDGE_CURVE('',#130,#131,#66,.T.);
#155=EDGE_CURVE('',#131,#132,#67,.T.);
#156=EDGE_CURVE('',#132,#123,#68,.T.);
#157=EDGE_CURVE('',#133,#125,#69,.T.);
#158=EDGE_CURVE('',#134,#133,#70,.T.);
#159=EDGE_CURVE('',#135,#134,#71,.T.);
#160=EDGE_CURVE('',#135,#127,#72,.T.);
#161=EDGE_CURVE('',#133,#136,#73,.T.);
#162=EDGE_CURVE('',#136,#137,#74,.T.);
#163=EDGE_CURVE('',#137,#134,#75,.T.);
#164=EDGE_CURVE('',#137,#138,#76,.T.);
#165=EDGE_CURVE('',#138,#139,#77,.T.);
#166=EDGE_CURVE('',#140,#139,#78,.T.);
#167=EDGE_CURVE('',#141,#140,#79,.T.);
#168=EDGE_CURVE('',#141,#142,#80,.T.);
#169=EDGE_CURVE('',#142,#135,#81,.T.);
#170=EDGE_CURVE('',#132,#138,#82,.T.);
#171=EDGE_CURVE('',#124,#136,#83,.T.);
#172=EDGE_CURVE('',#128,#142,#84,.T.);
#173=EDGE_CURVE('',#139,#131,#85,.T.);
#174=EDGE_CURVE('',#140,#130,#86,.T.);
#175=EDGE_CURVE('',#129,#141,#87,.T.);
#176=ORIENTED_EDGE('',*,*,#143,.F.);
#177=ORIENTED_EDGE('',*,*,#144,.T.);
#178=ORIENTED_EDGE('',*,*,#145,.F.);
#179=ORIENTED_EDGE('',*,*,#144,.F.);
#180=ORIENTED_EDGE('',*,*,#146,.T.);
#181=ORIENTED_EDGE('',*,*,#147,.T.);
#182=ORIENTED_EDGE('',*,*,#148,.T.);
#183=ORIENTED_EDGE('',*,*,#149,.T.);
#184=ORIENTED_EDGE('',*,*,#149,.F.);
#185=ORIENTED_EDGE('',*,*,#150,.T.);
#186=ORIENTED_EDGE('',*,*,#151,.T.);
#187=ORIENTED_EDGE('',*,*,#152,.F.);
#188=ORIENTED_EDGE('',*,*,#153,.F.);
#189=ORIENTED_EDGE('',*,*,#154,.T.);
#190=ORIENTED_EDGE('',*,*,#155,.T.);
#191=ORIENTED_EDGE('',*,*,#156,.T.);
#192=ORIENTED_EDGE('',*,*,#148,.F.);
#193=ORIENTED_EDGE('',*,*,#157,.F.);
#194=ORIENTED_EDGE('',*,*,#158,.F.);
#195=ORIENTED_EDGE('',*,*,#159,.F.);
#196=ORIENTED_EDGE('',*,*,#160,.T.);
#197=ORIENTED_EDGE('',*,*,#150,.F.);
#198=ORIENTED_EDGE('',*,*,#143,.T.);
#199=ORIENTED_EDGE('',*,*,#158,.T.);
#200=ORIENTED_EDGE('',*,*,#161,.T.);
#201=ORIENTED_EDGE('',*,*,#162,.T.);
#202=ORIENTED_EDGE('',*,*,#163,.T.);
#203=ORIENTED_EDGE('',*,*,#163,.F.);
#204=ORIENTED_EDGE('',*,*,#164,.T.);
#205=ORIENTED_EDGE('',*,*,#165,.T.);
#206=ORIENTED_EDGE('',*,*,#166,.F.);
#207=ORIENTED_EDGE('',*,*,#167,.F.);
#208=ORIENTED_EDGE('',*,*,#168,.T.);
#209=ORIENTED_EDGE('',*,*,#169,.T.);
#210=ORIENTED_EDGE('',*,*,#159,.T.);
#211=ORIENTED_EDGE('',*,*,#146,.F.);
#212=ORIENTED_EDGE('',*,*,#156,.F.);
#213=ORIENTED_EDGE('',*,*,#170,.T.);
#214=ORIENTED_EDGE('',*,*,#164,.F.);
#215=ORIENTED_EDGE('',*,*,#162,.F.);
#216=ORIENTED_EDGE('',*,*,#171,.F.);
#217=ORIENTED_EDGE('',*,*,#145,.T.);
#218=ORIENTED_EDGE('',*,*,#151,.F.);
#219=ORIENTED_EDGE('',*,*,#160,.F.);
#220=ORIENTED_EDGE('',*,*,#169,.F.);
#221=ORIENTED_EDGE('',*,*,#172,.F.);
#222=ORIENTED_EDGE('',*,*,#155,.F.);
#223=ORIENTED_EDGE('',*,*,#173,.F.);
#224=ORIENTED_EDGE('',*,*,#165,.F.);
#225=ORIENTED_EDGE('',*,*,#170,.F.);
#226=ORIENTED_EDGE('',*,*,#173,.T.);
#227=ORIENTED_EDGE('',*,*,#154,.F.);
#228=ORIENTED_EDGE('',*,*,#174,.F.);
#229=ORIENTED_EDGE('',*,*,#166,.T.);
#230=ORIENTED_EDGE('',*,*,#147,.F.);
#231=ORIENTED_EDGE('',*,*,#171,.T.);
#232=ORIENTED_EDGE('',*,*,#161,.F.);
#233=ORIENTED_EDGE('',*,*,#157,.T.);
#234=ORIENTED_EDGE('',*,*,#172,.T.);
#235=ORIENTED_EDGE('',*,*,#168,.F.);
#236=ORIENTED_EDGE('',*,*,#175,.F.);
#237=ORIENTED_EDGE('',*,*,#152,.T.);
#238=ORIENTED_EDGE('',*,*,#174,.T.);
#239=ORIENTED_EDGE('',*,*,#153,.T.);
#240=ORIENTED_EDGE('',*,*,#175,.T.);
#241=ORIENTED_EDGE('',*,*,#167,.T.);
#242=CYLINDRICAL_SURFACE('',#270,2.5);
#243=ADVANCED_FACE('',(#29),#242,.F.);
#244=ADVANCED_FACE('',(#30),#17,.T.);
#245=ADVANCED_FACE('',(#31),#18,.T.);
#246=ADVANCED_FACE('',(#32,#15),#19,.F.);
#247=ADVANCED_FACE('',(#33),#20,.T.);
#248=ADVANCED_FACE('',(#34),#21,.T.);
#249=ADVANCED_FACE('',(#35,#16),#22,.F.);
#250=ADVANCED_FACE('',(#36),#23,.F.);
#251=ADVANCED_FACE('',(#37),#24,.F.);
#252=ADVANCED_FACE('',(#38),#25,.T.);
#253=ADVANCED_FACE('',(#39),#26,.T.);
#254=ADVANCED_FACE('',(#40),#27,.T.);
#255=ADVANCED_FACE('',(#41),#28,.F.);
#256=CLOSED_SHELL('',(#243,#244,#245,#246,#247,#248,#249,#250,#251,#252,
#253,#254,#255));
#257=DERIVED_UNIT_ELEMENT(#259,1.);
#258=DERIVED_UNIT_ELEMENT(#422,-3.);
#259=(
MASS_UNIT()
NAMED_UNIT(*)
SI_UNIT(.KILO.,.GRAM.)
);
#260=DERIVED_UNIT((#257,#258));
#261=MEASURE_REPRESENTATION_ITEM('density measure',
POSITIVE_RATIO_MEASURE(7850.),#260);
#262=PROPERTY_DEFINITION_REPRESENTATION(#267,#264);
#263=PROPERTY_DEFINITION_REPRESENTATION(#268,#265);
#264=REPRESENTATION('material name',(#266),#419);
#265=REPRESENTATION('density',(#261),#419);
#266=DESCRIPTIVE_REPRESENTATION_ITEM('Steel','Steel');
#267=PROPERTY_DEFINITION('material property','material name',#429);
#268=PROPERTY_DEFINITION('material property','density of part',#429);
#269=AXIS2_PLACEMENT_3D('',#348,#285,#286);
#270=AXIS2_PLACEMENT_3D('',#349,#287,#288);
#271=AXIS2_PLACEMENT_3D('',#351,#289,#290);
#272=AXIS2_PLACEMENT_3D('',#354,#292,#293);
#273=AXIS2_PLACEMENT_3D('',#355,#294,#295);
#274=AXIS2_PLACEMENT_3D('',#364,#300,#301);
#275=AXIS2_PLACEMENT_3D('',#378,#309,#310);
#276=AXIS2_PLACEMENT_3D('',#386,#315,#316);
#277=AXIS2_PLACEMENT_3D('',#392,#320,#321);
#278=AXIS2_PLACEMENT_3D('',#404,#328,#329);
#279=AXIS2_PLACEMENT_3D('',#407,#332,#333);
#280=AXIS2_PLACEMENT_3D('',#409,#335,#336);
#281=AXIS2_PLACEMENT_3D('',#411,#338,#339);
#282=AXIS2_PLACEMENT_3D('',#413,#341,#342);
#283=AXIS2_PLACEMENT_3D('',#414,#343,#344);
#284=AXIS2_PLACEMENT_3D('',#416,#346,#347);
#285=DIRECTION('axis',(0.,0.,1.));
#286=DIRECTION('refdir',(1.,0.,0.));
#287=DIRECTION('center_axis',(0.,1.,0.));
#288=DIRECTION('ref_axis',(1.,0.,0.));
#289=DIRECTION('center_axis',(0.,1.,0.));
#290=DIRECTION('ref_axis',(1.,0.,0.));
#291=DIRECTION('',(0.,1.,0.));
#292=DIRECTION('center_axis',(0.,-1.,0.));
#293=DIRECTION('ref_axis',(1.,0.,0.));
#294=DIRECTION('center_axis',(0.707106781186548,0.,0.707106781186548));
#295=DIRECTION('ref_axis',(0.707106781186548,0.,-0.707106781186548));
#296=DIRECTION('',(-0.707106781186548,0.,0.707106781186548));
#297=DIRECTION('',(0.,-1.,0.));
#298=DIRECTION('',(0.707106781186548,0.,-0.707106781186548));
#299=DIRECTION('',(0.,1.,0.));
#300=DIRECTION('center_axis',(1.,0.,0.));
#301=DIRECTION('ref_axis',(0.,1.,0.));
#302=DIRECTION('',(0.,0.,-1.));
#303=DIRECTION('',(0.,-1.,0.));
#304=DIRECTION('',(0.,0.,1.));
#305=DIRECTION('',(0.,-1.,0.));
#306=DIRECTION('',(0.,0.,1.));
#307=DIRECTION('',(0.,-1.,0.));
#308=DIRECTION('',(0.,0.,1.));
#309=DIRECTION('center_axis',(0.,1.,0.));
#310=DIRECTION('ref_axis',(1.,0.,0.));
#311=DIRECTION('',(1.,0.,0.));
#312=DIRECTION('',(0.707106781186548,0.,0.707106781186548));
#313=DIRECTION('',(0.,0.,1.));
#314=DIRECTION('',(1.,0.,0.));
#315=DIRECTION('center_axis',(-0.707106781186548,0.,0.707106781186548));
#316=DIRECTION('ref_axis',(0.707106781186548,0.,0.707106781186548));
#317=DIRECTION('',(0.,1.,0.));
#318=DIRECTION('',(-0.707106781186548,0.,-0.707106781186548));
#319=DIRECTION('',(0.,-1.,0.));
#320=DIRECTION('center_axis',(-1.,0.,0.));
#321=DIRECTION('ref_axis',(0.,-1.,0.));
#322=DIRECTION('',(0.,0.,-1.));
#323=DIRECTION('',(0.,1.,0.));
#324=DIRECTION('',(0.,0.,1.));
#325=DIRECTION('',(0.,1.,0.));
#326=DIRECTION('',(0.,0.,1.));
#327=DIRECTION('',(0.,1.,0.));
#328=DIRECTION('center_axis',(0.,-1.,0.));
#329=DIRECTION('ref_axis',(-1.,0.,0.));
#330=DIRECTION('',(-1.,0.,0.));
#331=DIRECTION('',(-1.,0.,0.));
#332=DIRECTION('center_axis',(0.,0.,-1.));
#333=DIRECTION('ref_axis',(-1.,0.,0.));
#334=DIRECTION('',(-1.,0.,0.));
#335=DIRECTION('center_axis',(0.,0.,-1.));
#336=DIRECTION('ref_axis',(-1.,0.,0.));
#337=DIRECTION('',(1.,0.,0.));
#338=DIRECTION('center_axis',(0.,1.,0.));
#339=DIRECTION('ref_axis',(-1.,0.,0.));
#340=DIRECTION('',(1.,0.,0.));
#341=DIRECTION('center_axis',(0.,0.,1.));
#342=DIRECTION('ref_axis',(1.,0.,0.));
#343=DIRECTION('center_axis',(0.,-1.,0.));
#344=DIRECTION('ref_axis',(1.,0.,0.));
#345=DIRECTION('',(-1.,0.,0.));
#346=DIRECTION('center_axis',(0.,0.,1.));
#347=DIRECTION('ref_axis',(1.,0.,0.));
#348=CARTESIAN_POINT('',(0.,0.,0.));
#349=CARTESIAN_POINT('Origin',(8.2663658655872E-16,-3.5,24.5));
#350=CARTESIAN_POINT('',(-2.5,-3.5,24.5));
#351=CARTESIAN_POINT('Origin',(8.2663658655872E-16,-3.5,24.5));
#352=CARTESIAN_POINT('',(-2.5,3.5,24.5));
#353=CARTESIAN_POINT('',(-2.5,-3.5,24.5));
#354=CARTESIAN_POINT('Origin',(8.2663658655872E-16,3.5,24.5));
#355=CARTESIAN_POINT('Origin',(7.5,-5.,26.5));
#356=CARTESIAN_POINT('',(10.,3.5,24.));
#357=CARTESIAN_POINT('',(5.,3.5,29.));
#358=CARTESIAN_POINT('',(7.5,3.5,26.5));
#359=CARTESIAN_POINT('',(5.,-3.5,29.));
#360=CARTESIAN_POINT('',(5.,-5.,29.));
#361=CARTESIAN_POINT('',(10.,-3.5,24.));
#362=CARTESIAN_POINT('',(2.4999999627471,-3.5,31.5000000372529));
#363=CARTESIAN_POINT('',(10.,-5.,24.));
#364=CARTESIAN_POINT('Origin',(10.,-10.,0.));
#365=CARTESIAN_POINT('',(10.,-3.5,20.));
#366=CARTESIAN_POINT('',(10.,-3.5,14.5));
#367=CARTESIAN_POINT('',(10.,-10.,20.));
#368=CARTESIAN_POINT('',(10.,-8.3750000372529,20.));
#369=CARTESIAN_POINT('',(10.,-10.,0.));
#370=CARTESIAN_POINT('',(10.,-10.,0.));
#371=CARTESIAN_POINT('',(10.,10.,0.));
#372=CARTESIAN_POINT('',(10.,10.,0.));
#373=CARTESIAN_POINT('',(10.,10.,20.));
#374=CARTESIAN_POINT('',(10.,10.,0.));
#375=CARTESIAN_POINT('',(10.,3.5,20.));
#376=CARTESIAN_POINT('',(10.,-1.6249999627471,20.));
#377=CARTESIAN_POINT('',(10.,3.5,14.5));
#378=CARTESIAN_POINT('Origin',(-10.0000001490116,-3.5,29.));
#379=CARTESIAN_POINT('',(-5.,-3.5,29.));
#380=CARTESIAN_POINT('',(-5.00000007450581,-3.5,29.));
#381=CARTESIAN_POINT('',(-10.,-3.5,24.));
#382=CARTESIAN_POINT('',(-7.5000000372529,-3.5,26.4999999627471));
#383=CARTESIAN_POINT('',(-10.0000001490116,-3.5,20.));
#384=CARTESIAN_POINT('',(-10.,-3.5,14.5));
#385=CARTESIAN_POINT('',(10.0000001490116,-3.5,20.));
#386=CARTESIAN_POINT('Origin',(-7.5,5.,26.5));
#387=CARTESIAN_POINT('',(-5.,3.5,29.));
#388=CARTESIAN_POINT('',(-5.,5.,29.));
#389=CARTESIAN_POINT('',(-10.,3.5,24.));
#390=CARTESIAN_POINT('',(-2.5,3.5,31.5));
#391=CARTESIAN_POINT('',(-10.,5.,24.));
#392=CARTESIAN_POINT('Origin',(-10.,10.,0.));
#393=CARTESIAN_POINT('',(-10.0000001490116,3.5,20.));
#394=CARTESIAN_POINT('',(-10.,3.5,14.5));
#395=CARTESIAN_POINT('',(-10.0000001490116,10.0000001490116,20.));
#396=CARTESIAN_POINT('',(-10.,8.3750000372529,20.));
#397=CARTESIAN_POINT('',(-10.,10.,0.));
#398=CARTESIAN_POINT('',(-10.,10.,0.));
#399=CARTESIAN_POINT('',(-10.,-10.,0.));
#400=CARTESIAN_POINT('',(-10.,-10.,0.));
#401=CARTESIAN_POINT('',(-10.0000001490116,-10.0000001490116,20.));
#402=CARTESIAN_POINT('',(-10.,-10.,0.));
#403=CARTESIAN_POINT('',(-10.,1.6249999627471,20.));
#404=CARTESIAN_POINT('Origin',(10.,3.5,29.));
#405=CARTESIAN_POINT('',(10.0000001490116,3.5,20.));
#406=CARTESIAN_POINT('',(5.,3.5,29.));
#407=CARTESIAN_POINT('Origin',(0.,-6.75000007450581,20.));
#408=CARTESIAN_POINT('',(-5.,-10.,20.));
#409=CARTESIAN_POINT('Origin',(0.,6.75000007450581,20.));
#410=CARTESIAN_POINT('',(5.,10.,20.));
#411=CARTESIAN_POINT('Origin',(10.,10.,0.));
#412=CARTESIAN_POINT('',(-10.,10.,0.));
#413=CARTESIAN_POINT('Origin',(0.,0.,29.));
#414=CARTESIAN_POINT('Origin',(-10.,-10.,0.));
#415=CARTESIAN_POINT('',(10.,-10.,0.));
#416=CARTESIAN_POINT('Origin',(0.,0.,0.));
#417=UNCERTAINTY_MEASURE_WITH_UNIT(LENGTH_MEASURE(0.01),#421,
'DISTANCE_ACCURACY_VALUE',
'Maximum model space distance between geometric entities at asserted c
onnectivities');
#418=UNCERTAINTY_MEASURE_WITH_UNIT(LENGTH_MEASURE(0.01),#421,
'DISTANCE_ACCURACY_VALUE',
'Maximum model space distance between geometric entities at asserted c
onnectivities');
#419=(
GEOMETRIC_REPRESENTATION_CONTEXT(3)
GLOBAL_UNCERTAINTY_ASSIGNED_CONTEXT((#417))
GLOBAL_UNIT_ASSIGNED_CONTEXT((#421,#423,#424))
REPRESENTATION_CONTEXT('','3D')
);
#420=(
GEOMETRIC_REPRESENTATION_CONTEXT(3)
GLOBAL_UNCERTAINTY_ASSIGNED_CONTEXT((#418))
GLOBAL_UNIT_ASSIGNED_CONTEXT((#421,#423,#424))
REPRESENTATION_CONTEXT('','3D')
);
#421=(
LENGTH_UNIT()
NAMED_UNIT(*)
SI_UNIT(.MILLI.,.METRE.)
);
#422=(
LENGTH_UNIT()
NAMED_UNIT(*)
SI_UNIT($,.METRE.)
);
#423=(
NAMED_UNIT(*)
PLANE_ANGLE_UNIT()
SI_UNIT($,.RADIAN.)
);
#424=(
NAMED_UNIT(*)
SI_UNIT($,.STERADIAN.)
SOLID_ANGLE_UNIT()
);
#425=SHAPE_DEFINITION_REPRESENTATION(#426,#427);
#426=PRODUCT_DEFINITION_SHAPE('',$,#429);
#427=SHAPE_REPRESENTATION('',(#269),#419);
#428=PRODUCT_DEFINITION_CONTEXT('part definition',#433,'design');
#429=PRODUCT_DEFINITION('Weight Block (PUBLIC)',
'Weight Block (PUBLIC) v13',#430,#428);
#430=PRODUCT_DEFINITION_FORMATION('',$,#435);
#431=PRODUCT_RELATED_PRODUCT_CATEGORY('Weight Block (PUBLIC) v13',
'Weight Block (PUBLIC) v13',(#435));
#432=APPLICATION_PROTOCOL_DEFINITION('international standard',
'automotive_design',2009,#433);
#433=APPLICATION_CONTEXT(
'Core Data for Automotive Mechanical Design Process');
#434=PRODUCT_CONTEXT('part definition',#433,'mechanical');
#435=PRODUCT('Weight Block (PUBLIC)','Weight Block (PUBLIC) v13',$,(#434));
#436=PRESENTATION_STYLE_ASSIGNMENT((#437));
#437=SURFACE_STYLE_USAGE(.BOTH.,#438);
#438=SURFACE_SIDE_STYLE('',(#439));
#439=SURFACE_STYLE_FILL_AREA(#440);
#440=FILL_AREA_STYLE('Steel - Satin',(#441));
#441=FILL_AREA_STYLE_COLOUR('Steel - Satin',#442);
#442=COLOUR_RGB('Steel - Satin',0.627450980392157,0.627450980392157,0.627450980392157);
ENDSEC;
END-ISO-10303-21;
